Original on http://classicalguitarmidi.com/tablature.html
ГЛАВНАЯ

ИНДЕКС Композиторов

КОМПОЗИТОРЫ ГРАФИК

ВИДЕО

табулатуре СИСТЕМА

MIDI ИСТОРИЯ

ССЫЛКИ

ДРЕВНИЕ GUITARS



Табулатуры

табулатуры это старая система обозначений которая была создана , чтобы писать музыку , составленную для виуэлы. Эта система была популярна до восемнадцатого века, многие произведения доступны только в этой системе счисления, она до сих пор используется. В этой системе, каждая строка персонала представляет строку инструмента. В испанских и итальянских табулатурах, верхняя строка представлена ​​в нижней строке, в то время как на французском и английском табулатурах, будет обратный случай. Вот шесть первых мер Н. COSTE в Etude No.11 , написанные на французском языке для гитары табулатуры.

  Etude No.11 op.38


 Косте Napoléon




 E || --------------- | ------105p-4h-7--5\--- |------37р-6Н-8--7------ |
 B || --------------- | --7------------------- |--0-------------------- |
 G || --------------- | --7------------------- |--0-------------------- |
 D || --5------------ | --0------------------- |--2-------------------- |
 Л || --------------- | ---------------------- |----------------------- |
 E || --------------- | ---------------------- |----------------------- |



 --7--------------------|-------- 8p-7Н-10--8----|-------7р-6h-8--7---- |
 --7-----7р-6h-8--7-----|------------------------|--3------------------ |
 --8--------------------|--9---------------------|--4------------------ |
 -----------------------|--10--------------------|--5------------------ |
 -----------------------|--10--------------------|--5------------------ |
 --7--------------------|--8---------------------|--------------------- |



  Эта цифра наглядно показывает цифры на линиях.  Эти цифры указывают на ладу быть остановлено на том, что
 определенная строка.  Ноль означает, что играть в открытую бечевку, X приглушить эту строку. 
  Как читать табулатуры 
  Условные обозначения: 
  0: открытая струна 
  1 ... х: номер лада, чтобы играть на конкретной строке 
  р: притяжение 
  ч: молоток на 
  \: скользить вниз;  /:скользить вверх 
  Выполнение табулатуры 
 EA CH вертикальные пунктир представляет конец меры.  Каждая горизонтальная линия = строка на гитаре, здесь, французский табулатуры.  На первой меры, остановить 5 - ладу на строку D.  На втором меры, играют аккорд на струнах EBGD на 10 - й, 7 - й, 7 - й и открытой струны D соответственно.  Вырви первую строку на 5 - м ладу и с только левой рукой, вытяните до 4 - го лада.  Затем забивают сверху, с левой стороны, на 7 - м ладу.  Затем сдвигают вниз с 5 - го лада на 3 - й одной из первой строки на следующей хорде третьей меры во время игры , что аккорд.  Играть 7 - й ладу 1 - й струны, стянуть к 6 - му ладу и молот на 8 - м ладу;  играть в 7 - ой ладу первой строки. 
  Второй ряд читается аналогично. 

  Объяснение эффектов 
  HAMMER ONS 
 E ----------------------------------------------------------------
 B ----------------------------------------------------------------
 Г-----------------------------------------------------------------
 D ----------------------------------------------------------------
 A---------5H7-----------------------------------------------------
 E---0-------------------------------------------------------------

 которая означает играть открытую E, а затем нажмите Строка на
 Пятого лада и молот на 7-м ладу. 
  PULL OFFS 

  E ----3P0-------------------------------------------------------- 
  B ---------3P0--------------------------------------------------- 
  G --------------2p0---------------------------------------------- 
  D -------------------2------------------------------------------- 
  A---------------------------------------------------------------- 
  E --------------------------------------------------------------- 


  Здесь у нас есть нисходящая заметки , используя тянуть-офф к открытому 
  строки.  Для каждого стянуть вы только выбрать первую ноту пары 
  с правой стороны-так что в этом примере вы бы выбрать все 
  отмечает на 3-й и 2-го лада, а также открытые струны будет 
  озвученный стаскивать. 


  Потому что вы даете трунной дополнительный бит энергии , когда вы забить на 
  и снять, вам нужно всего лишь попасть в первую ноту с захватывающего рукой. 
  Можно даже иметь длинную последовательность молотковых дополнений и тянуть-офф , как 
  это :  

  E ------------------------------------------------------------------ 
  B ------------------------------------------------------------------ 
  G --- 2h4p2h4p2h4p2h4p2h4p2 ---------------------------------------- 
  D ------------------------------------------------------------------ 
  A------------------------------------------------------------------- 
  E ------------------------------------------------------------------ 

  В этом случае вы только выбрать первую ноту. 
  
 
  BENDS 
  
 
  Когда отводы вовлечены вы должны знать, сколько гнуть записку 
  вверх.  Об этом свидетельствует, написав число после 'B'. 
  Например, если вы видите это:  
  E ---------------------------------------------------------------- 
  B ------7b9------------------------------------------------------- 
  Г----------------------------------------------------------------- 
  D ---------------------------------------------------------------- 
  A----------------------------------------------------------------- 
  E ---------------------------------------------------------------- 


  это означает нанести удар строку B на 7-м ладу, затем согните ноту вверх 
  два полутона (один целый шаг) , так что это звучит так же , как шаг 
  нота разъеденный на 9 - м ладу будет делать. 
  
 
  ГОРКИ 
  
 
  Наиболее распространенные символы , используемые для слайдов являются / для слайд 
  и \ для слайд вниз. 

  Вы также можете увидеть 'S' используется для обозначения слайда.  


  E ---------------------------------------------------------------- 
  B ------7/9------------------------------------------------------- 
  Г----------------------------------------------------------------- 
  D ---------------------------------------------------------------- 
  A----------------------------------------------------------------- 
  E ---------------------------------------------------------------- 

  явно слайд * до * от 7-го по 9-лада.  Однако вы могли бы 
  также видеть такие вещи: 
  
 
  
  Вы могли бы иметь целый ряд слайдов работает вместе, как это  
  E ---------------------------------------------------------------- 
  B ------ 7/9/11 \9\7\6\7 ----------------------------------------- 
  Г----------------------------------------------------------------- 
  D ---------------------------------------------------------------- 
  A----------------------------------------------------------------- 
  E ---------------------------------------------------------------- 

  что означало бы вы только ударить первую ноту с помощью 
  сустейн производить другие ноты. 
  Что табулатура не скажет вам 
   
  Табулатуры (обычно) не сообщат вам длительности к сведению записки - так в большинстве 
  случаев вы будете * есть *, чтобы прослушать песню самостоятельно, с табулатуры перед 
  вами отработать ритм нот.  Тем не менее, некоторые редакторы табулатур, 
  как Guitar Pro, покажет длительность ноты точно так же, как в стандартных обозначениях. 
  Табулатура не покажет вам, какие пальцы вы используете, какую ноту. 
  Польский перевод Викки Rotarova 
ГЛАВНАЯ

ИНДЕКС Композиторов

КОМПОЗИТОРЫ ГРАФИК

ВИДЕО

табулатуре СИСТЕМА

MIDI ИСТОРИЯ

ССЫЛКИ

ДРЕВНИЕ GUITARS

Copyright Франсуа Faucher 1998-2016